Арт - Творчество

Ураган


Em              Gm     Am   Em
Вокруг пустота, кругом ни души,
Em               Gm   Am    Em
И колос томиться один средь тиши.
Am              D            G       C
На поле овсяном спокойно как в штиль,
Am                 D      G     F-Em
И в небо вонзается дерево-шпиль.

Солнце закрыто серым пятном,
А духота расстелилась кругом. 
Ни ветерка - спокойствие, тишь,
И в озере дремлет безмолвно камыш.

Вдруг, появляется ветер муссон.
Ветки клонЯтся, разносится стон.
Колос о землю бьёт головой,
И тучу слезит на деревья водой.

Мечутся в панике листья толпой.
Над озером серым разносится вой.
Падают бомбами капли из туч,
И не пробьётся сквозь них даже луч.

Молнии скачут на дерево-шпиль,
Камыш загорается словно фитиль.
Небо кричит и проклятия шлёт,
Дождь кулаками по озеру бьёт.


Проигрыш:
Em Gm Am Em
Em Gm Am Em
Am D G C
Am D G 
F G Em
F G Em
F G Em


Em              Gm     Am   Em
Кругом ни души, вокруг пустота,
Em                   Gm  Am   Em
И колос плывёт, куда скажет вода.
Am                 D        G  C
Деревья разодраны, пеплом камыш.
Am              D        G
Ни ветерка, спокойствие, тишь.


Первый, второй и последний куплеты играются перебором. Остальные - боем (включая проигрышь). Перед первым, вторым и последним куплетом - небольшое вступление:

-0-----0------3------5------0-----0------3------5----
---0-----0------3------5------0-----0------3------5--
-----0-----0------3------5------0-----0------3------5
--------------5------7-------------------5------7----
-----------------------------------------------------
-0--------------------------0------------------------


-0-----0------3------5------7------8------10-----8------7-----7----
---0-----0------3------5------5------5------7------5------4-----4--
-----0-----0------3------5------5------5------7------5------4-----4
--------------5------7------6------5------7------5------4----------
-------------------------------------------------------------------
-0-----------------------------------------------------------------

Перед всеми остальными - тоже самое, аккорды те же, только играется, соответственно боем.
Аккорды в песне лучше брать так:

Em Gm Am   Am D  G  C   F  G  Em
0  3  5    0  2  3  0   1  3  0
0  3  5    1  3  0  1   1  0  0
0  3  5    2  2  0  0   2  0  0
2  5  7    2  0  0  2   3  0  2
2  x  x    0  x  2  3   3  2  2
0  x  x    x  x  3  x   1  3  0

Подняться вверх страницы
;)
Вы можете написать мне письмо прямо с сайта (вот отсюда).